ISO-10303-21;
HEADER;
FILE_DESCRIPTION (( 'STEP AP214' ),
    '1' );
FILE_NAME ('¹ø3D ¿¬½À 29.STEP',
    '2019-01-27T03:35:15',
    ( '' ),
    ( '' ),
    'SwSTEP 2.0',
    'SolidWorks 2018',
    '' );
FILE_SCHEMA (( 'AUTOMOTIVE_DESIGN' ));
ENDSEC;

DATA;
#1 = DIRECTION ( 'NONE',  ( 0.0000000000000000000, -1.000000000000000000, 0.0000000000000000000 ) ) ;
#2 = EDGE_LOOP ( 'NONE', ( #120, #329, #148 ) ) ;
#3 = VECTOR ( 'NONE', #162, 1000.000000000000114 ) ;
#4 = VECTOR ( 'NONE', #210, 1000.000000000000114 ) ;
#5 = ORIENTED_EDGE ( 'NONE', *, *, #70, .T. ) ;
#6 = DIRECTION ( 'NONE',  ( -0.4012764050067341159, 2.775557561562891351E-17, -0.9159570114284139031 ) ) ;
#7 =( LENGTH_UNIT ( ) NAMED_UNIT ( * ) SI_UNIT ( .MILLI., .METRE. ) );
#8 = AXIS2_PLACEMENT_3D ( 'NONE', #211, #274, #83 ) ;
#9 = SURFACE_SIDE_STYLE ('',( #236 ) ) ;
#10 = EDGE_CURVE ( 'NONE', #285, #84, #26, .T. ) ;
#11 = DIRECTION ( 'NONE',  ( -0.6441357457827796562, -0.0000000000000000000, -0.7649111981170507724 ) ) ;
#12 = CARTESIAN_POINT ( 'NONE',  ( 0.0000000000000000000, 0.0000000000000000000, 0.0000000000000000000 ) ) ;
#13 = VECTOR ( 'NONE', #227, 1000.000000000000000 ) ;
#14 = LINE ( 'NONE', #165, #137 ) ;
#15 = DIRECTION ( 'NONE',  ( -1.000000000000000000, -0.0000000000000000000, -0.0000000000000000000 ) ) ;
#16 = VERTEX_POINT ( 'NONE', #185 ) ;
#17 = CARTESIAN_POINT ( 'NONE',  ( 26.25000000000000711, 10.50000000000000178, 19.00000000000000355 ) ) ;
#18 = PRODUCT_RELATED_PRODUCT_CATEGORY ( 'part', '', ( #315 ) ) ;
#19 = EDGE_LOOP ( 'NONE', ( #290, #114, #205 ) ) ;
#20 = VECTOR ( 'NONE', #131, 1000.000000000000000 ) ;
#21 = DIRECTION ( 'NONE',  ( -0.0000000000000000000, 1.000000000000000000, -0.0000000000000000000 ) ) ;
#22 =( GEOMETRIC_REPRESENTATION_CONTEXT ( 3 ) GLOBAL_UNCERTAINTY_ASSIGNED_CONTEXT ( ( #36 ) ) GLOBAL_UNIT_ASSIGNED_CONTEXT ( ( #7, #296, #138 ) ) REPRESENTATION_CONTEXT ( 'NONE', 'WORKASPACE' ) );
#23 = FACE_OUTER_BOUND ( 'NONE', #19, .T. ) ;
#24 = LINE ( 'NONE', #361, #247 ) ;
#25 = CARTESIAN_POINT ( 'NONE',  ( 10.96555126535797342, 25.58628628583528197, 25.03006267092579762 ) ) ;
#26 = LINE ( 'NONE', #280, #340 ) ;
#27 = ORIENTED_EDGE ( 'NONE', *, *, #93, .F. ) ;
#28 = ORIENTED_EDGE ( 'NONE', *, *, #153, .F. ) ;
#29 = EDGE_CURVE ( 'NONE', #45, #61, #334, .T. ) ;
#30 = LINE ( 'NONE', #379, #255 ) ;
#31 = DIRECTION ( 'NONE',  ( 1.000000000000000000, 0.0000000000000000000, 0.0000000000000000000 ) ) ;
#32 = ADVANCED_FACE ( 'NONE', ( #270 ), #250, .F. ) ;
#33 = LINE ( 'NONE', #152, #350 ) ;
#34 = DIRECTION ( 'NONE',  ( 0.0000000000000000000, -1.000000000000000000, 0.0000000000000000000 ) ) ;
#35 = ORIENTED_EDGE ( 'NONE', *, *, #10, .T. ) ;
#36 = UNCERTAINTY_MEASURE_WITH_UNIT (LENGTH_MEASURE( 1.000000000000000082E-05 ), #7, 'distance_accuracy_value', 'NONE');
#37 = CARTESIAN_POINT ( 'NONE',  ( 26.25000000000000711, 23.00000000000000355, 19.00000000000000355 ) ) ;
#38 = ORIENTED_EDGE ( 'NONE', *, *, #70, .F. ) ;
#39 = AXIS2_PLACEMENT_3D ( 'NONE', #12, #73, #171 ) ;
#40 = DIRECTION ( 'NONE',  ( 0.6774757547517903378, 0.0000000000000000000, 0.7355451051590866651 ) ) ;
#41 = DIRECTION ( 'NONE',  ( -0.6441357457827796562, 0.0000000000000000000, -0.7649111981170508834 ) ) ;
#42 = PLANE ( 'NONE',  #216 ) ;
#43 = AXIS2_PLACEMENT_3D ( 'NONE', #256, #6, #222 ) ;
#44 = FILL_AREA_STYLE ('',( #275 ) ) ;
#45 = VERTEX_POINT ( 'NONE', #385 ) ;
#46 = EDGE_CURVE ( 'NONE', #90, #342, #258, .T. ) ;
#47 = CARTESIAN_POINT ( 'NONE',  ( 0.0000000000000000000, 0.0000000000000000000, 68.00000000000000000 ) ) ;
#48 = ORIENTED_EDGE ( 'NONE', *, *, #108, .T. ) ;
#49 = CARTESIAN_POINT ( 'NONE',  ( 26.25000000000000711, 10.50000000000000178, 19.00000000000000355 ) ) ;
#50 = DIRECTION ( 'NONE',  ( 1.476360405086644309E-16, 1.000000000000000000, 0.0000000000000000000 ) ) ;
#51 = ADVANCED_BREP_SHAPE_REPRESENTATION ( '¹ø3D ¿¬½À 29', ( #307, #39 ), #22 ) ;
#52 = SHAPE_DEFINITION_REPRESENTATION ( #155, #51 ) ;
#53 = CARTESIAN_POINT ( 'NONE',  ( -26.24999999999999645, -23.00000000000000355, 68.00000000000000000 ) ) ;
#54 = DIRECTION ( 'NONE',  ( 0.7592566023652965734, 0.0000000000000000000, 0.6507913734559686025 ) ) ;
#55 = EDGE_CURVE ( 'NONE', #342, #61, #33, .T. ) ;
#56 = VERTEX_POINT ( 'NONE', #160 ) ;
#57 = ORIENTED_EDGE ( 'NONE', *, *, #128, .T. ) ;
#58 = VECTOR ( 'NONE', #80, 1000.000000000000000 ) ;
#59 = ADVANCED_FACE ( 'NONE', ( #194 ), #190, .F. ) ;
#60 = CARTESIAN_POINT ( 'NONE',  ( -7.551787867127202070, 25.49397889895427483, 8.810419178315083144 ) ) ;
#61 = VERTEX_POINT ( 'NONE', #314 ) ;
#62 = ADVANCED_FACE ( 'NONE', ( #286 ), #289, .F. ) ;
#63 = AXIS2_PLACEMENT_3D ( 'NONE', #193, #34, #163 ) ;
#64 = LINE ( 'NONE', #77, #20 ) ;
#65 = ORIENTED_EDGE ( 'NONE', *, *, #208, .F. ) ;
#66 = CARTESIAN_POINT ( 'NONE',  ( -26.24999999999999645, 23.00000000000000355, 68.00000000000000000 ) ) ;
#67 = VECTOR ( 'NONE', #324, 1000.000000000000000 ) ;
#68 = CARTESIAN_POINT ( 'NONE',  ( -26.24999999999999645, -23.00000000000000355, 0.0000000000000000000 ) ) ;
#69 = FILL_AREA_STYLE ('',( #136 ) ) ;
#70 = EDGE_CURVE ( 'NONE', #61, #16, #175, .T. ) ;
#71 = ORIENTED_EDGE ( 'NONE', *, *, #180, .F. ) ;
#72 = CARTESIAN_POINT ( 'NONE',  ( 26.25000000000000000, -23.00000000000000355, 68.00000000000000000 ) ) ;
#73 = DIRECTION ( 'NONE',  ( 0.0000000000000000000, 0.0000000000000000000, 1.000000000000000000 ) ) ;
#74 = COLOUR_RGB ( '',0.2000000000000000111, 0.2000000000000000111, 0.2000000000000000111 ) ;
#75 = EDGE_LOOP ( 'NONE', ( #158, #57, #380 ) ) ;
#76 = CARTESIAN_POINT ( 'NONE',  ( 26.25000000000000711, 10.50000000000000178, 19.00000000000000355 ) ) ;
#77 = CARTESIAN_POINT ( 'NONE',  ( 26.25000000000000355, -23.00000000000000355, 68.00000000000000000 ) ) ;
#78 = LINE ( 'NONE', #240, #89 ) ;
#79 = PRODUCT_DEFINITION_CONTEXT ( 'detailed design', #346, 'design' ) ;
#80 = DIRECTION ( 'NONE',  ( -1.000000000000000000, 0.0000000000000000000, 1.933652840758978700E-17 ) ) ;
#81 = DIRECTION ( 'NONE',  ( 0.0000000000000000000, 0.0000000000000000000, 1.000000000000000000 ) ) ;
#82 = DIRECTION ( 'NONE',  ( 0.0000000000000000000, 0.0000000000000000000, 1.000000000000000000 ) ) ;
#83 = DIRECTION ( 'NONE',  ( 0.0000000000000000000, -0.0000000000000000000, 1.000000000000000000 ) ) ;
#84 = VERTEX_POINT ( 'NONE', #259 ) ;
#85 = DIRECTION ( 'NONE',  ( 0.6774757547517904488, 0.0000000000000000000, 0.7355451051590866651 ) ) ;
#86 =( GEOMETRIC_REPRESENTATION_CONTEXT ( 3 ) GLOBAL_UNCERTAINTY_ASSIGNED_CONTEXT ( ( #298 ) ) GLOBAL_UNIT_ASSIGNED_CONTEXT ( ( #316, #202, #345 ) ) REPRESENTATION_CONTEXT ( 'NONE', 'WORKASPACE' ) );
#87 = VERTEX_POINT ( 'NONE', #37 ) ;
#88 = VECTOR ( 'NONE', #166, 999.9999999999998863 ) ;
#89 = VECTOR ( 'NONE', #54, 1000.000000000000000 ) ;
#90 = VERTEX_POINT ( 'NONE', #102 ) ;
#91 = DIRECTION ( 'NONE',  ( -0.0000000000000000000, 1.000000000000000000, -0.0000000000000000000 ) ) ;
#92 = EDGE_CURVE ( 'NONE', #16, #343, #332, .T. ) ;
#93 = EDGE_CURVE ( 'NONE', #177, #90, #96, .T. ) ;
#94 = DIRECTION ( 'NONE',  ( -0.0000000000000000000, -1.000000000000000000, -0.0000000000000000000 ) ) ;
#95 = ADVANCED_FACE ( 'NONE', ( #188 ), #224, .F. ) ;
#96 = LINE ( 'NONE', #97, #3 ) ;
#97 = CARTESIAN_POINT ( 'NONE',  ( 26.25000000000000355, 23.00000000000000355, 45.00000000000000711 ) ) ;
#98 = VECTOR ( 'NONE', #119, 1000.000000000000000 ) ;
#99 = VECTOR ( 'NONE', #31, 1000.000000000000000 ) ;
#100 = ORIENTED_EDGE ( 'NONE', *, *, #92, .T. ) ;
#101 = ORIENTED_EDGE ( 'NONE', *, *, #283, .F. ) ;
#102 = CARTESIAN_POINT ( 'NONE',  ( -26.24999999999999289, -0.4999999999999877320, 68.00000000000000000 ) ) ;
#103 = SURFACE_STYLE_USAGE ( .BOTH. , #372 ) ;
#104 = CARTESIAN_POINT ( 'NONE',  ( 26.25000000000001066, 10.50000000000000178, 38.00000000000000711 ) ) ;
#105 = AXIS2_PLACEMENT_3D ( 'NONE', #375, #209, #82 ) ;
#106 = VECTOR ( 'NONE', #313, 1000.000000000000000 ) ;
#107 = CARTESIAN_POINT ( 'NONE',  ( 26.25000000000000355, 23.00000000000000355, 0.0000000000000000000 ) ) ;
#108 = EDGE_CURVE ( 'NONE', #56, #363, #254, .T. ) ;
#109 = FACE_OUTER_BOUND ( 'NONE', #241, .T. ) ;
#110 = CARTESIAN_POINT ( 'NONE',  ( -26.24999999999999645, -23.00000000000000355, 68.00000000000000000 ) ) ;
#111 = CARTESIAN_POINT ( 'NONE',  ( -26.24999999999999645, -23.00000000000000355, 68.00000000000000000 ) ) ;
#112 = DIRECTION ( 'NONE',  ( -0.0000000000000000000, -0.0000000000000000000, -1.000000000000000000 ) ) ;
#113 = ORIENTED_EDGE ( 'NONE', *, *, #153, .T. ) ;
#114 = ORIENTED_EDGE ( 'NONE', *, *, #46, .T. ) ;
#115 = CARTESIAN_POINT ( 'NONE',  ( 10.25000000000000178, 10.50000000000000178, 1.959434878635765131E-15 ) ) ;
#116 = CARTESIAN_POINT ( 'NONE',  ( 26.25000000000000355, -23.00000000000000355, 68.00000000000000000 ) ) ;
#117 = EDGE_CURVE ( 'NONE', #87, #343, #338, .T. ) ;
#118 = VECTOR ( 'NONE', #327, 1000.000000000000114 ) ;
#119 = DIRECTION ( 'NONE',  ( -0.0000000000000000000, 1.000000000000000000, -0.0000000000000000000 ) ) ;
#120 = ORIENTED_EDGE ( 'NONE', *, *, #201, .T. ) ;
#121 = ORIENTED_EDGE ( 'NONE', *, *, #337, .F. ) ;
#122 = EDGE_LOOP ( 'NONE', ( #113, #154, #249, #349 ) ) ;
#123 = ORIENTED_EDGE ( 'NONE', *, *, #213, .F. ) ;
#124 = DIRECTION ( 'NONE',  ( 0.2696042611278679502, -0.9101533921763497181, -0.3145383046491797563 ) ) ;
#125 = AXIS2_PLACEMENT_3D ( 'NONE', #116, #142, #81 ) ;
#126 = ORIENTED_EDGE ( 'NONE', *, *, #302, .F. ) ;
#127 = ADVANCED_FACE ( 'NONE', ( #23 ), #262, .F. ) ;
#128 = EDGE_CURVE ( 'NONE', #90, #184, #323, .T. ) ;
#129 = VERTEX_POINT ( 'NONE', #291 ) ;
#130 = CARTESIAN_POINT ( 'NONE',  ( -8.749999999999998224, 23.00000000000000355, 2.326828918379970970E-15 ) ) ;
#131 = DIRECTION ( 'NONE',  ( -0.0000000000000000000, -0.0000000000000000000, -1.000000000000000000 ) ) ;
#132 =( NAMED_UNIT ( * ) SI_UNIT ( $, .STERADIAN. ) SOLID_ANGLE_UNIT ( ) );
#133 = AXIS2_PLACEMENT_3D ( 'NONE', #53, #143, #355 ) ;
#134 = APPLICATION_CONTEXT ( 'automotive_design' ) ;
#135 = EDGE_CURVE ( 'NONE', #353, #184, #246, .T. ) ;
#136 = FILL_AREA_STYLE_COLOUR ( '', #74 ) ;
#137 = VECTOR ( 'NONE', #200, 1000.000000000000000 ) ;
#138 =( NAMED_UNIT ( * ) SI_UNIT ( $, .STERADIAN. ) SOLID_ANGLE_UNIT ( ) );
#139 = ORIENTED_EDGE ( 'NONE', *, *, #320, .F. ) ;
#140 = CARTESIAN_POINT ( 'NONE',  ( 26.25000000000000711, -0.4999999999999970024, 45.00000000000000711 ) ) ;
#141 = LINE ( 'NONE', #110, #67 ) ;
#142 = DIRECTION ( 'NONE',  ( -1.000000000000000000, 0.0000000000000000000, 0.0000000000000000000 ) ) ;
#143 = DIRECTION ( 'NONE',  ( 1.000000000000000000, 0.0000000000000000000, 0.0000000000000000000 ) ) ;
#144 = ORIENTED_EDGE ( 'NONE', *, *, #92, .F. ) ;
#145 = PLANE ( 'NONE',  #151 ) ;
#146 = MECHANICAL_DESIGN_GEOMETRIC_PRESENTATION_REPRESENTATION (  '', ( #388 ), #86 ) ;
#147 = EDGE_CURVE ( 'NONE', #335, #218, #159, .T. ) ;
#148 = ORIENTED_EDGE ( 'NONE', *, *, #117, .T. ) ;
#149 = VECTOR ( 'NONE', #328, 1000.000000000000000 ) ;
#150 = DIRECTION ( 'NONE',  ( 0.0000000000000000000, 0.3266331359582436145, -0.9451512019217260807 ) ) ;
#151 = AXIS2_PLACEMENT_3D ( 'NONE', #25, #356, #331 ) ;
#152 = CARTESIAN_POINT ( 'NONE',  ( -26.24999999999999645, -23.00000000000000355, 68.00000000000000000 ) ) ;
#153 = EDGE_CURVE ( 'NONE', #177, #363, #14, .T. ) ;
#154 = ORIENTED_EDGE ( 'NONE', *, *, #108, .F. ) ;
#155 = PRODUCT_DEFINITION_SHAPE ( 'NONE', 'NONE',  #214 ) ;
#156 = ADVANCED_FACE ( 'NONE', ( #174 ), #42, .F. ) ;
#157 = CARTESIAN_POINT ( 'NONE',  ( -26.24999999999999645, -23.00000000000000355, 0.0000000000000000000 ) ) ;
#158 = ORIENTED_EDGE ( 'NONE', *, *, #192, .F. ) ;
#159 = LINE ( 'NONE', #76, #268 ) ;
#160 = CARTESIAN_POINT ( 'NONE',  ( -8.749999999999998224, 23.00000000000000355, 2.326828918379970970E-15 ) ) ;
#161 = LINE ( 'NONE', #237, #149 ) ;
#162 = DIRECTION ( 'NONE',  ( -0.8474910278848246659, -0.3793531267674930541, 0.3712817836447803721 ) ) ;
#163 = DIRECTION ( 'NONE',  ( 0.0000000000000000000, -0.0000000000000000000, -1.000000000000000000 ) ) ;
#164 = DIRECTION ( 'NONE',  ( 0.0000000000000000000, 0.0000000000000000000, -1.000000000000000000 ) ) ;
#165 = CARTESIAN_POINT ( 'NONE',  ( 26.25000000000000355, 23.00000000000000355, 68.00000000000000000 ) ) ;
#166 = DIRECTION ( 'NONE',  ( -1.078295100530052735E-16, -0.6992941554637311929, 0.7148340255851473035 ) ) ;
#167 = ORIENTED_EDGE ( 'NONE', *, *, #373, .F. ) ;
#168 = CARTESIAN_POINT ( 'NONE',  ( 0.0000000000000000000, 0.0000000000000000000, 0.0000000000000000000 ) ) ;
#169 = VECTOR ( 'NONE', #368, 1000.000000000000114 ) ;
#170 = UNCERTAINTY_MEASURE_WITH_UNIT (LENGTH_MEASURE( 1.000000000000000082E-05 ), #231, 'distance_accuracy_value', 'NONE');
#171 = DIRECTION ( 'NONE',  ( 1.000000000000000000, 0.0000000000000000000, 0.0000000000000000000 ) ) ;
#172 = VECTOR ( 'NONE', #40, 1000.000000000000114 ) ;
#173 = EDGE_CURVE ( 'NONE', #87, #84, #284, .T. ) ;
#174 = FACE_OUTER_BOUND ( 'NONE', #309, .T. ) ;
#175 = LINE ( 'NONE', #68, #99 ) ;
#176 = CARTESIAN_POINT ( 'NONE',  ( 10.25000000000000178, 10.50000000000000178, 1.959434878635765131E-15 ) ) ;
#177 = VERTEX_POINT ( 'NONE', #235 ) ;
#178 = ORIENTED_EDGE ( 'NONE', *, *, #147, .F. ) ;
#179 = PRESENTATION_LAYER_ASSIGNMENT (  '', '', ( #300 ) ) ;
#180 = EDGE_CURVE ( 'NONE', #342, #184, #141, .T. ) ;
#181 = VECTOR ( 'NONE', #112, 1000.000000000000000 ) ;
#182 = LINE ( 'NONE', #381, #98 ) ;
#183 = ORIENTED_EDGE ( 'NONE', *, *, #248, .F. ) ;
#184 = VERTEX_POINT ( 'NONE', #72 ) ;
#185 = CARTESIAN_POINT ( 'NONE',  ( 26.25000000000000355, -23.00000000000000355, 0.0000000000000000000 ) ) ;
#186 = ORIENTED_EDGE ( 'NONE', *, *, #147, .T. ) ;
#187 = LINE ( 'NONE', #292, #169 ) ;
#188 = FACE_OUTER_BOUND ( 'NONE', #311, .T. ) ;
#189 = PRESENTATION_LAYER_ASSIGNMENT (  '', '', ( #388 ) ) ;
#190 = PLANE ( 'NONE',  #63 ) ;
#191 = COLOUR_RGB ( '',0.2000000000000000111, 0.2000000000000000111, 0.2000000000000000111 ) ;
#192 = EDGE_CURVE ( 'NONE', #90, #353, #333, .T. ) ;
#193 = CARTESIAN_POINT ( 'NONE',  ( -26.24999999999999645, 23.00000000000000355, 68.00000000000000000 ) ) ;
#194 = FACE_OUTER_BOUND ( 'NONE', #122, .T. ) ;
#195 = ORIENTED_EDGE ( 'NONE', *, *, #55, .F. ) ;
#196 = EDGE_LOOP ( 'NONE', ( #272, #305, #186, #317 ) ) ;
#197 = DIRECTION ( 'NONE',  ( -0.0000000000000000000, 1.000000000000000000, -0.0000000000000000000 ) ) ;
#198 = PRODUCT_CONTEXT ( 'NONE', #134, 'mechanical' ) ;
#199 = MECHANICAL_DESIGN_GEOMETRIC_PRESENTATION_REPRESENTATION (  '', ( #300 ), #318 ) ;
#200 = DIRECTION ( 'NONE',  ( -0.0000000000000000000, -0.0000000000000000000, -1.000000000000000000 ) ) ;
#201 = EDGE_CURVE ( 'NONE', #343, #84, #30, .T. ) ;
#202 =( NAMED_UNIT ( * ) PLANE_ANGLE_UNIT ( ) SI_UNIT ( $, .RADIAN. ) );
#203 = VECTOR ( 'NONE', #11, 1000.000000000000114 ) ;
#204 = VECTOR ( 'NONE', #94, 1000.000000000000000 ) ;
#205 = ORIENTED_EDGE ( 'NONE', *, *, #180, .T. ) ;
#206 = CARTESIAN_POINT ( 'NONE',  ( -8.749999999999998224, 10.50000000000000178, 2.326828918379970970E-15 ) ) ;
#207 = EDGE_LOOP ( 'NONE', ( #233, #126, #27 ) ) ;
#208 = EDGE_CURVE ( 'NONE', #353, #177, #312, .T. ) ;
#209 = DIRECTION ( 'NONE',  ( 0.0000000000000000000, 1.000000000000000000, -0.0000000000000000000 ) ) ;
#210 = DIRECTION ( 'NONE',  ( -0.6441357457827796562, -0.0000000000000000000, -0.7649111981170507724 ) ) ;
#211 = CARTESIAN_POINT ( 'NONE',  ( -26.24999999999999645, -23.00000000000000355, 68.00000000000000000 ) ) ;
#212 = CARTESIAN_POINT ( 'NONE',  ( 10.25000000000000178, 10.50000000000000178, 0.0000000000000000000 ) ) ;
#213 = EDGE_CURVE ( 'NONE', #218, #285, #339, .T. ) ;
#214 = PRODUCT_DEFINITION ( 'UNKNOWN', '', #238, #79 ) ;
#215 = CARTESIAN_POINT ( 'NONE',  ( -26.24999999999999645, -23.00000000000000355, 68.00000000000000000 ) ) ;
#216 = AXIS2_PLACEMENT_3D ( 'NONE', #367, #321, #41 ) ;
#217 = ADVANCED_FACE ( 'NONE', ( #348 ), #377, .T. ) ;
#218 = VERTEX_POINT ( 'NONE', #17 ) ;
#219 = ADVANCED_FACE ( 'NONE', ( #109 ), #239, .F. ) ;
#220 = VECTOR ( 'NONE', #197, 1000.000000000000000 ) ;
#221 = ORIENTED_EDGE ( 'NONE', *, *, #201, .F. ) ;
#222 = DIRECTION ( 'NONE',  ( -0.9159570114284137921, 0.0000000000000000000, 0.4012764050067340604 ) ) ;
#223 = PRESENTATION_STYLE_ASSIGNMENT (( #225 ) ) ;
#224 = PLANE ( 'NONE',  #43 ) ;
#225 = SURFACE_STYLE_USAGE ( .BOTH. , #9 ) ;
#226 = CARTESIAN_POINT ( 'NONE',  ( -26.24999999999999289, -0.4999999999999877320, 68.00000000000000000 ) ) ;
#227 = DIRECTION ( 'NONE',  ( 0.9191450300180578070, -0.3939192985791679646, 0.0000000000000000000 ) ) ;
#228 = CARTESIAN_POINT ( 'NONE',  ( 26.25000000000000000, -0.4999999999999970024, 45.00000000000000711 ) ) ;
#229 = EDGE_LOOP ( 'NONE', ( #35, #221, #144, #38, #387, #371, #101, #183 ) ) ;
#230 = DIRECTION ( 'NONE',  ( -1.826024711554533420E-16, -0.0000000000000000000, -1.000000000000000000 ) ) ;
#231 =( LENGTH_UNIT ( ) NAMED_UNIT ( * ) SI_UNIT ( .MILLI., .METRE. ) );
#232 = AXIS2_PLACEMENT_3D ( 'NONE', #47, #326, #295 ) ;
#233 = ORIENTED_EDGE ( 'NONE', *, *, #234, .F. ) ;
#234 = EDGE_CURVE ( 'NONE', #45, #177, #78, .T. ) ;
#235 = CARTESIAN_POINT ( 'NONE',  ( 26.25000000000000711, 23.00000000000000355, 45.00000000000000711 ) ) ;
#236 = SURFACE_STYLE_FILL_AREA ( #44 ) ;
#237 = CARTESIAN_POINT ( 'NONE',  ( -26.24999999999999645, 23.00000000000000355, 0.0000000000000000000 ) ) ;
#238 = PRODUCT_DEFINITION_FORMATION_WITH_SPECIFIED_SOURCE ( 'ANY', '', #315, .NOT_KNOWN. ) ;
#239 = PLANE ( 'NONE',  #125 ) ;
#240 = CARTESIAN_POINT ( 'NONE',  ( -26.24999999999999645, 23.00000000000000355, 0.0000000000000000000 ) ) ;
#241 = EDGE_LOOP ( 'NONE', ( #243, #359, #178, #260, #28, #65, #271, #383, #100 ) ) ;
#242 = AXIS2_PLACEMENT_3D ( 'NONE', #66, #1, #341 ) ;
#243 = ORIENTED_EDGE ( 'NONE', *, *, #117, .F. ) ;
#244 = EDGE_CURVE ( 'NONE', #56, #45, #161, .T. ) ;
#245 = EDGE_LOOP ( 'NONE', ( #48, #167, #121, #288 ) ) ;
#246 = LINE ( 'NONE', #140, #88 ) ;
#247 = VECTOR ( 'NONE', #282, 1000.000000000000114 ) ;
#248 = EDGE_CURVE ( 'NONE', #285, #129, #358, .T. ) ;
#249 = ORIENTED_EDGE ( 'NONE', *, *, #244, .T. ) ;
#250 = PLANE ( 'NONE',  #357 ) ;
#251 = ORIENTED_EDGE ( 'NONE', *, *, #208, .T. ) ;
#252 = ADVANCED_FACE ( 'NONE', ( #384 ), #299, .F. ) ;
#253 = ADVANCED_FACE ( 'NONE', ( #325 ), #378, .F. ) ;
#254 = LINE ( 'NONE', #130, #172 ) ;
#255 = VECTOR ( 'NONE', #15, 1000.000000000000000 ) ;
#256 = CARTESIAN_POINT ( 'NONE',  ( 20.76668442279888893, -1.436394646162225427E-15, 47.40221444334525103 ) ) ;
#257 = ADVANCED_FACE ( 'NONE', ( #376 ), #330, .F. ) ;
#258 = LINE ( 'NONE', #215, #277 ) ;
#259 = CARTESIAN_POINT ( 'NONE',  ( 10.25000000000000178, 23.00000000000000355, 1.959434878635765131E-15 ) ) ;
#260 = ORIENTED_EDGE ( 'NONE', *, *, #373, .T. ) ;
#261 = APPLICATION_PROTOCOL_DEFINITION ( 'draft international standard', 'automotive_design', 1998, #134 ) ;
#262 = PLANE ( 'NONE',  #232 ) ;
#263 = CARTESIAN_POINT ( 'NONE',  ( 26.25000000000001066, 10.50000000000000178, 38.00000000000000711 ) ) ;
#264 = AXIS2_PLACEMENT_3D ( 'NONE', #206, #354, #85 ) ;
#265 =( NAMED_UNIT ( * ) PLANE_ANGLE_UNIT ( ) SI_UNIT ( $, .RADIAN. ) );
#266 = EDGE_CURVE ( 'NONE', #218, #87, #269, .T. ) ;
#267 = PLANE ( 'NONE',  #369 ) ;
#268 = VECTOR ( 'NONE', #230, 1000.000000000000000 ) ;
#269 = LINE ( 'NONE', #49, #306 ) ;
#270 = FACE_OUTER_BOUND ( 'NONE', #207, .T. ) ;
#271 = ORIENTED_EDGE ( 'NONE', *, *, #135, .T. ) ;
#272 = ORIENTED_EDGE ( 'NONE', *, *, #248, .T. ) ;
#273 = ORIENTED_EDGE ( 'NONE', *, *, #192, .T. ) ;
#274 = DIRECTION ( 'NONE',  ( 0.0000000000000000000, 1.000000000000000000, 0.0000000000000000000 ) ) ;
#275 = FILL_AREA_STYLE_COLOUR ( '', #191 ) ;
#276 = VECTOR ( 'NONE', #50, 1000.000000000000000 ) ;
#277 = VECTOR ( 'NONE', #336, 1000.000000000000000 ) ;
#278 = ORIENTED_EDGE ( 'NONE', *, *, #93, .T. ) ;
#279 = EDGE_LOOP ( 'NONE', ( #5, #139, #71, #374 ) ) ;
#280 = CARTESIAN_POINT ( 'NONE',  ( 10.25000000000000178, 10.50000000000000178, 1.959434878635765131E-15 ) ) ;
#281 = FACE_OUTER_BOUND ( 'NONE', #229, .T. ) ;
#282 = DIRECTION ( 'NONE',  ( -0.0000000000000000000, 0.3266331359582436145, -0.9451512019217260807 ) ) ;
#283 = EDGE_CURVE ( 'NONE', #129, #56, #182, .T. ) ;
#284 = LINE ( 'NONE', #297, #203 ) ;
#285 = VERTEX_POINT ( 'NONE', #212 ) ;
#286 = FACE_OUTER_BOUND ( 'NONE', #2, .T. ) ;
#287 = ADVANCED_FACE ( 'NONE', ( #364 ), #145, .T. ) ;
#288 = ORIENTED_EDGE ( 'NONE', *, *, #283, .T. ) ;
#289 = PLANE ( 'NONE',  #242 ) ;
#290 = ORIENTED_EDGE ( 'NONE', *, *, #128, .F. ) ;
#291 = CARTESIAN_POINT ( 'NONE',  ( -8.749999999999998224, 10.50000000000000178, 2.326828918379970970E-15 ) ) ;
#292 = CARTESIAN_POINT ( 'NONE',  ( -8.749999999999998224, 10.50000000000000178, 2.326828918379970970E-15 ) ) ;
#293 = CARTESIAN_POINT ( 'NONE',  ( 26.25000000000001066, 23.00000000000000355, 38.00000000000000711 ) ) ;
#294 = ORIENTED_EDGE ( 'NONE', *, *, #173, .T. ) ;
#295 = DIRECTION ( 'NONE',  ( -1.000000000000000000, 0.0000000000000000000, -0.0000000000000000000 ) ) ;
#296 =( NAMED_UNIT ( * ) PLANE_ANGLE_UNIT ( ) SI_UNIT ( $, .RADIAN. ) );
#297 = CARTESIAN_POINT ( 'NONE',  ( 10.25000000000000178, 23.00000000000000355, 1.959434878635765131E-15 ) ) ;
#298 = UNCERTAINTY_MEASURE_WITH_UNIT (LENGTH_MEASURE( 1.000000000000000082E-05 ), #316, 'distance_accuracy_value', 'NONE');
#299 = PLANE ( 'NONE',  #264 ) ;
#300 = STYLED_ITEM ( 'NONE', ( #223 ), #307 ) ;
#301 = ORIENTED_EDGE ( 'NONE', *, *, #302, .T. ) ;
#302 = EDGE_CURVE ( 'NONE', #90, #45, #24, .T. ) ;
#303 = ORIENTED_EDGE ( 'NONE', *, *, #29, .T. ) ;
#304 = LINE ( 'NONE', #104, #220 ) ;
#305 = ORIENTED_EDGE ( 'NONE', *, *, #337, .T. ) ;
#306 = VECTOR ( 'NONE', #21, 1000.000000000000000 ) ;
#307 = MANIFOLD_SOLID_BREP ( 'ÄÆ-µ¹Ãâ6', #360 ) ;
#308 = DIRECTION ( 'NONE',  ( -0.0000000000000000000, -0.0000000000000000000, -1.000000000000000000 ) ) ;
#309 = EDGE_LOOP ( 'NONE', ( #294, #351, #123, #322 ) ) ;
#310 = PRESENTATION_STYLE_ASSIGNMENT (( #103 ) ) ;
#311 = EDGE_LOOP ( 'NONE', ( #278, #273, #251 ) ) ;
#312 = LINE ( 'NONE', #352, #276 ) ;
#313 = DIRECTION ( 'NONE',  ( 0.0000000000000000000, 1.000000000000000000, 0.0000000000000000000 ) ) ;
#314 = CARTESIAN_POINT ( 'NONE',  ( -26.24999999999999645, -23.00000000000000355, 0.0000000000000000000 ) ) ;
#315 = PRODUCT ( '¹ø3D ¿¬½À 29', '¹ø3D ¿¬½À 29', '', ( #198 ) ) ;
#316 =( LENGTH_UNIT ( ) NAMED_UNIT ( * ) SI_UNIT ( .MILLI., .METRE. ) );
#317 = ORIENTED_EDGE ( 'NONE', *, *, #213, .T. ) ;
#318 =( GEOMETRIC_REPRESENTATION_CONTEXT ( 3 ) GLOBAL_UNCERTAINTY_ASSIGNED_CONTEXT ( ( #170 ) ) GLOBAL_UNIT_ASSIGNED_CONTEXT ( ( #231, #265, #132 ) ) REPRESENTATION_CONTEXT ( 'NONE', 'WORKASPACE' ) );
#319 = APPLICATION_PROTOCOL_DEFINITION ( 'draft international standard', 'automotive_design', 1998, #346 ) ;
#320 = EDGE_CURVE ( 'NONE', #184, #16, #64, .T. ) ;
#321 = DIRECTION ( 'NONE',  ( 0.7649111981170508834, 0.0000000000000000000, -0.6441357457827796562 ) ) ;
#322 = ORIENTED_EDGE ( 'NONE', *, *, #266, .T. ) ;
#323 = LINE ( 'NONE', #226, #13 ) ;
#324 = DIRECTION ( 'NONE',  ( 1.000000000000000000, 0.0000000000000000000, 0.0000000000000000000 ) ) ;
#325 = FACE_OUTER_BOUND ( 'NONE', #279, .T. ) ;
#326 = DIRECTION ( 'NONE',  ( 0.0000000000000000000, 0.0000000000000000000, -1.000000000000000000 ) ) ;
#327 = DIRECTION ( 'NONE',  ( 0.9159570114284140141, -1.607847989409359875E-16, -0.4012764050067337274 ) ) ;
#328 = DIRECTION ( 'NONE',  ( -1.000000000000000000, -0.0000000000000000000, -0.0000000000000000000 ) ) ;
#329 = ORIENTED_EDGE ( 'NONE', *, *, #173, .F. ) ;
#330 = PLANE ( 'NONE',  #133 ) ;
#331 = DIRECTION ( 'NONE',  ( 0.0000000000000000000, -0.6992941554637307489, 0.7148340255851477476 ) ) ;
#332 = LINE ( 'NONE', #365, #106 ) ;
#333 = LINE ( 'NONE', #347, #118 ) ;
#334 = LINE ( 'NONE', #157, #204 ) ;
#335 = VERTEX_POINT ( 'NONE', #263 ) ;
#336 = DIRECTION ( 'NONE',  ( -0.0000000000000000000, -1.000000000000000000, -0.0000000000000000000 ) ) ;
#337 = EDGE_CURVE ( 'NONE', #129, #335, #187, .T. ) ;
#338 = LINE ( 'NONE', #370, #181 ) ;
#339 = LINE ( 'NONE', #176, #4 ) ;
#340 = VECTOR ( 'NONE', #91, 1000.000000000000000 ) ;
#341 = DIRECTION ( 'NONE',  ( 0.0000000000000000000, -0.0000000000000000000, -1.000000000000000000 ) ) ;
#342 = VERTEX_POINT ( 'NONE', #111 ) ;
#343 = VERTEX_POINT ( 'NONE', #107 ) ;
#344 = EDGE_LOOP ( 'NONE', ( #386, #301, #303, #195 ) ) ;
#345 =( NAMED_UNIT ( * ) SI_UNIT ( $, .STERADIAN. ) SOLID_ANGLE_UNIT ( ) );
#346 = APPLICATION_CONTEXT ( 'automotive_design' ) ;
#347 = CARTESIAN_POINT ( 'NONE',  ( -26.24999999999999289, -0.4999999999999877320, 68.00000000000000000 ) ) ;
#348 = FACE_OUTER_BOUND ( 'NONE', #196, .T. ) ;
#349 = ORIENTED_EDGE ( 'NONE', *, *, #234, .T. ) ;
#350 = VECTOR ( 'NONE', #308, 1000.000000000000000 ) ;
#351 = ORIENTED_EDGE ( 'NONE', *, *, #10, .F. ) ;
#352 = CARTESIAN_POINT ( 'NONE',  ( 26.25000000000000355, -0.4999999999999970024, 45.00000000000000711 ) ) ;
#353 = VERTEX_POINT ( 'NONE', #228 ) ;
#354 = DIRECTION ( 'NONE',  ( -0.7355451051590866651, 0.0000000000000000000, 0.6774757547517904488 ) ) ;
#355 = DIRECTION ( 'NONE',  ( 0.0000000000000000000, 0.0000000000000000000, -1.000000000000000000 ) ) ;
#356 = DIRECTION ( 'NONE',  ( 0.2929196972914040464, 0.6834792936799430896, 0.6686210481651609916 ) ) ;
#357 = AXIS2_PLACEMENT_3D ( 'NONE', #60, #124, #150 ) ;
#358 = LINE ( 'NONE', #115, #58 ) ;
#359 = ORIENTED_EDGE ( 'NONE', *, *, #266, .F. ) ;
#360 = CLOSED_SHELL ( 'NONE', ( #62, #127, #219, #59, #257, #253, #362, #32, #287, #95, #156, #252, #217 ) ) ;
#361 = CARTESIAN_POINT ( 'NONE',  ( -26.24999999999999645, 23.00000000000000355, 0.0000000000000000000 ) ) ;
#362 = ADVANCED_FACE ( 'NONE', ( #281 ), #267, .T. ) ;
#363 = VERTEX_POINT ( 'NONE', #293 ) ;
#364 = FACE_OUTER_BOUND ( 'NONE', #75, .T. ) ;
#365 = CARTESIAN_POINT ( 'NONE',  ( 26.25000000000000355, -23.00000000000000355, 0.0000000000000000000 ) ) ;
#366 = DIRECTION ( 'NONE',  ( -1.000000000000000000, 0.0000000000000000000, -0.0000000000000000000 ) ) ;
#367 = CARTESIAN_POINT ( 'NONE',  ( 10.25000000000000178, 10.50000000000000178, 1.959434878635765131E-15 ) ) ;
#368 = DIRECTION ( 'NONE',  ( 0.6774757547517903378, 0.0000000000000000000, 0.7355451051590866651 ) ) ;
#369 = AXIS2_PLACEMENT_3D ( 'NONE', #168, #164, #366 ) ;
#370 = CARTESIAN_POINT ( 'NONE',  ( 26.25000000000000355, 23.00000000000000355, 68.00000000000000000 ) ) ;
#371 = ORIENTED_EDGE ( 'NONE', *, *, #244, .F. ) ;
#372 = SURFACE_SIDE_STYLE ('',( #382 ) ) ;
#373 = EDGE_CURVE ( 'NONE', #335, #363, #304, .T. ) ;
#374 = ORIENTED_EDGE ( 'NONE', *, *, #55, .T. ) ;
#375 = CARTESIAN_POINT ( 'NONE',  ( 0.0000000000000000000, 10.50000000000000178, 0.0000000000000000000 ) ) ;
#376 = FACE_OUTER_BOUND ( 'NONE', #344, .T. ) ;
#377 = PLANE ( 'NONE',  #105 ) ;
#378 = PLANE ( 'NONE',  #8 ) ;
#379 = CARTESIAN_POINT ( 'NONE',  ( -26.24999999999999645, 23.00000000000000355, 0.0000000000000000000 ) ) ;
#380 = ORIENTED_EDGE ( 'NONE', *, *, #135, .F. ) ;
#381 = CARTESIAN_POINT ( 'NONE',  ( -8.749999999999998224, 10.50000000000000178, 2.326828918379970970E-15 ) ) ;
#382 = SURFACE_STYLE_FILL_AREA ( #69 ) ;
#383 = ORIENTED_EDGE ( 'NONE', *, *, #320, .T. ) ;
#384 = FACE_OUTER_BOUND ( 'NONE', #245, .T. ) ;
#385 = CARTESIAN_POINT ( 'NONE',  ( -26.24999999999999645, 23.00000000000000355, 0.0000000000000000000 ) ) ;
#386 = ORIENTED_EDGE ( 'NONE', *, *, #46, .F. ) ;
#387 = ORIENTED_EDGE ( 'NONE', *, *, #29, .F. ) ;
#388 = STYLED_ITEM ( 'NONE', ( #310 ), #51 ) ;
ENDSEC;
END-ISO-10303-21;
